4
email us links
tabulature
:: music ::
:: lyrics ::
:: tabs ::
:: video ::

music - falling slowly

 
print-friendly page
Intro

C F Am F F

Verse

C F C F
C F C F

Bridge

Am G F G
Am G F F

Chorus

C G Am F
C G Am F
source: Sarge [email]

(1) 

e --------------0-------------------------1--------------

B --------3-----------3-------------3-----------3--------

G -----0-----0-----0-----0-------0-----0-----0-----0-----

D -------------------------------------------------------

A --3-------------------------1--------------------------

E ------------------------------------------------------- 


e --------------0----------------------------------------

B --------3-----------3--------------1-----1-----1-------

G -----0-----0-----0-----0--------0-----0-----0-----0----

D -------------------------------------------------------

A --3----------------------------------------------------

E -----------------------------1------------------------- 

(2) 

e -------------0--------------------0--------------------

B -------------------------------------------------------

G --------2---------2----------2---------2---------------

D -------------------------------------------------------

A -----0-------------------3-----------------------------

E ------------------------------------------------------- 


e -------------------------------------------------------

B ------------1--------------------3---------------------

G ---------2-----2--------------0-----0------------------

D ------------------------------------------------------- go into F

A -------------------------------------------------------

E -----1-------------------3----------------------------- 
 
 

(1)

I don't know you, but I want you

All the more for that

Words fall through me, and always fool me

And I can't react 

(2)

Games that never amount

To more than they're meant

Will play themselves out  

C                 F
Take this sinking boat

             Am
And point it home

                F
We've still got time

C                  F
Raise your hopeful voice

          Am
You had a choice

               F
You've made it now 

(1)

Falling slowly, eyes that know me

And I can't go back

Moods that take me, and erase me

And I'm painted black 

(2)

You have suffered enough

And warred with yourself

It's time that you won 

C                F
Take this sinking boat

            Am
And point it home

                F
We've still got time

C                  F
Raise your hopeful voice

          Am
You had a choice

               F
You've made it now

C
Falling slowly

F             Am
Sing your melody

             F
I'll sing it loud 

(keep going on F until the end of the song) 

source: livi flynn**
Disclaimer:
All tabs on www.theframes.ie are submitted by fans unless otherwise stated. Every effort has been made to acknowledge the contributor of a particular contribution. The tabs are meant to give a (very) basic idea of the chord changes in the songs and suggest a few things that may help when performing them on a solo acoustic guitar. Tabs are entirely subjective and certainly not intended to be the last word on the matter. If you wish to add anything to the archive please email tab-admin[at]theframes.ie
back to top
 
theframes.ie
   
[warchild]   [worldaidsday]   [maketradefair]